ISO-10303-21;
HEADER;
FILE_DESCRIPTION (( 'STEP AP203' ),
    '1' );
FILE_NAME ('Q-OZHWP-R2-20-248-M.STEP',
    '2020-12-22T09:16:02',
    ( '' ),
    ( '' ),
    'SwSTEP 2.0',
    'SolidWorks 2020',
    '' );
FILE_SCHEMA (( 'CONFIG_CONTROL_DESIGN' ));
ENDSEC;

DATA;
#1 = AXIS2_PLACEMENT_3D ( 'NONE', #5, #293, #114 ) ;
#2 =( GEOMETRIC_REPRESENTATION_CONTEXT ( 3 ) GLOBAL_UNCERTAINTY_ASSIGNED_CONTEXT ( ( #158 ) ) GLOBAL_UNIT_ASSIGNED_CONTEXT ( ( #140, #148, #76 ) ) REPRESENTATION_CONTEXT ( 'NONE', 'WORKASPACE' ) );
#3 = CARTESIAN_POINT ( 'NONE',  ( -1.614212418857619014, 0.000000000000000000, 0.000000000000000000 ) ) ;
#4 = DIRECTION ( 'NONE',  ( -1.000000000000000000, -0.000000000000000000, -0.000000000000000000 ) ) ;
#5 = CARTESIAN_POINT ( 'NONE',  ( -1.614212418857619014, 0.000000000000000000, 0.000000000000000000 ) ) ;
#6 = DIRECTION ( 'NONE',  ( 0.000000000000000000, 0.000000000000000000, 1.000000000000000000 ) ) ;
#7 = EDGE_CURVE ( 'NONE', #238, #220, #21, .T. ) ;
#8 = CARTESIAN_POINT ( 'NONE',  ( -3.000000000000000000, 1.555301434917138433E-15, -12.69999999999999929 ) ) ;
#9 = CARTESIAN_POINT ( 'NONE',  ( -1.614212418857619014, 0.000000000000000000, 0.000000000000000000 ) ) ;
#10 = ORIENTED_EDGE ( 'NONE', *, *, #108, .F. ) ;
#11 = PERSON_AND_ORGANIZATION ( #173, #263 ) ;
#12 = CIRCLE ( 'NONE', #274, 10.00000000000000000 ) ;
#13 = MECHANICAL_CONTEXT ( 'NONE', #124, 'mechanical' ) ;
#14 = ORIENTED_EDGE ( 'NONE', *, *, #179, .F. ) ;
#15 = DATE_AND_TIME ( #126, #240 ) ;
#16 = ORIENTED_EDGE ( 'NONE', *, *, #79, .T. ) ;
#17 = APPROVAL_DATE_TIME ( #271, #167 ) ;
#18 = ADVANCED_FACE ( 'NONE', ( #23, #255 ), #259, .F. ) ;
#19 = AXIS2_PLACEMENT_3D ( 'NONE', #137, #111, #266 ) ;
#20 = APPROVAL_STATUS ( 'not_yet_approved' ) ;
#21 = LINE ( 'NONE', #310, #331 ) ;
#22 = CC_DESIGN_PERSON_AND_ORGANIZATION_ASSIGNMENT ( #98, #251, ( #138 ) ) ;
#23 = FACE_OUTER_BOUND ( 'NONE', #192, .T. ) ;
#24 = LINE ( 'NONE', #105, #35 ) ;
#25 = AXIS2_PLACEMENT_3D ( 'NONE', #318, #91, #62 ) ;
#26 = DIRECTION ( 'NONE',  ( 0.000000000000000000, 0.000000000000000000, 1.000000000000000000 ) ) ;
#27 = LINE ( 'NONE', #234, #295 ) ;
#28 = DESIGN_CONTEXT ( 'detailed design', #256, 'design' ) ;
#29 = ADVANCED_FACE ( 'NONE', ( #177, #281 ), #181, .F. ) ;
#30 = DIRECTION ( 'NONE',  ( -1.000000000000000000, -0.000000000000000000, -0.000000000000000000 ) ) ;
#31 = ADVANCED_FACE ( 'NONE', ( #83 ), #129, .F. ) ;
#32 = DIRECTION ( 'NONE',  ( -1.000000000000000000, -0.000000000000000000, -0.000000000000000000 ) ) ;
#33 = CARTESIAN_POINT ( 'NONE',  ( -2.500000000000000444, 0.000000000000000000, 0.000000000000000000 ) ) ;
#34 = EDGE_LOOP ( 'NONE', ( #48, #10, #141, #41 ) ) ;
#35 = VECTOR ( 'NONE', #315, 1000.000000000000000 ) ;
#36 = FACE_OUTER_BOUND ( 'NONE', #321, .T. ) ;
#37 = ORIENTED_EDGE ( 'NONE', *, *, #112, .F. ) ;
#38 = CC_DESIGN_PERSON_AND_ORGANIZATION_ASSIGNMENT ( #198, #102, ( #215 ) ) ;
#39 = VERTEX_POINT ( 'NONE', #154 ) ;
#40 = DIRECTION ( 'NONE',  ( -1.000000000000000000, -0.000000000000000000, -0.000000000000000000 ) ) ;
#41 = ORIENTED_EDGE ( 'NONE', *, *, #156, .T. ) ;
#42 = DIRECTION ( 'NONE',  ( 0.000000000000000000, 0.000000000000000000, 1.000000000000000000 ) ) ;
#43 = MANIFOLD_SOLID_BREP ( 'Ðý×', #307 ) ;
#44 = PRODUCT_DEFINITION ( 'UNKNOWN', '', #75, #28 ) ;
#45 = AXIS2_PLACEMENT_3D ( 'NONE', #326, #268, #100 ) ;
#46 = DIRECTION ( 'NONE',  ( -1.000000000000000000, -0.000000000000000000, -0.000000000000000000 ) ) ;
#47 = ORIENTED_EDGE ( 'NONE', *, *, #323, .F. ) ;
#48 = ORIENTED_EDGE ( 'NONE', *, *, #316, .F. ) ;
#49 = CALENDAR_DATE ( 2020, 22, 12 ) ;
#50 = EDGE_LOOP ( 'NONE', ( #14, #253 ) ) ;
#51 = APPROVAL_STATUS ( 'not_yet_approved' ) ;
#52 = CIRCLE ( 'NONE', #106, 12.69999999999999929 ) ;
#53 = DIRECTION ( 'NONE',  ( 1.000000000000000000, 0.000000000000000000, 0.000000000000000000 ) ) ;
#54 = FACE_OUTER_BOUND ( 'NONE', #280, .T. ) ;
#55 = CC_DESIGN_PERSON_AND_ORGANIZATION_ASSIGNMENT ( #121, #221, ( #44 ) ) ;
#56 = EDGE_CURVE ( 'NONE', #65, #270, #230, .T. ) ;
#57 = SHAPE_DEFINITION_REPRESENTATION ( #231, #249 ) ;
#58 = AXIS2_PLACEMENT_3D ( 'NONE', #165, #72, #306 ) ;
#59 = DIRECTION ( 'NONE',  ( -1.000000000000000000, -0.000000000000000000, -0.000000000000000000 ) ) ;
#60 = AXIS2_PLACEMENT_3D ( 'NONE', #33, #297, #163 ) ;
#61 = CC_DESIGN_PERSON_AND_ORGANIZATION_ASSIGNMENT ( #95, #226, ( #75 ) ) ;
#62 = DIRECTION ( 'NONE',  ( 0.000000000000000000, 0.000000000000000000, 1.000000000000000000 ) ) ;
#63 = CARTESIAN_POINT ( 'NONE',  ( 2.500000000000000888, 0.000000000000000000, 0.000000000000000000 ) ) ;
#64 = DIRECTION ( 'NONE',  ( 0.000000000000000000, 0.000000000000000000, 1.000000000000000000 ) ) ;
#65 = VERTEX_POINT ( 'NONE', #155 ) ;
#66 = CYLINDRICAL_SURFACE ( 'NONE', #118, 12.69999999999999929 ) ;
#67 = CC_DESIGN_DATE_AND_TIME_ASSIGNMENT ( #273, #203, ( #215 ) ) ;
#68 = APPLICATION_PROTOCOL_DEFINITION ( 'international standard', 'config_control_design', 1994, #256 ) ;
#69 = DIRECTION ( 'NONE',  ( 0.000000000000000000, 0.000000000000000000, 1.000000000000000000 ) ) ;
#70 = EDGE_LOOP ( 'NONE', ( #77, #37 ) ) ;
#71 = PERSON_AND_ORGANIZATION ( #173, #263 ) ;
#72 = DIRECTION ( 'NONE',  ( -1.000000000000000000, -0.000000000000000000, -0.000000000000000000 ) ) ;
#73 = ORIENTED_EDGE ( 'NONE', *, *, #162, .F. ) ;
#74 = CALENDAR_DATE ( 2020, 22, 12 ) ;
#75 = PRODUCT_DEFINITION_FORMATION_WITH_SPECIFIED_SOURCE ( 'ANY', '', #138, .NOT_KNOWN. ) ;
#76 =( NAMED_UNIT ( * ) SI_UNIT ( $, .STERADIAN. ) SOLID_ANGLE_UNIT ( ) );
#77 = ORIENTED_EDGE ( 'NONE', *, *, #120, .F. ) ;
#78 = COORDINATED_UNIVERSAL_TIME_OFFSET ( 8, 0, .AHEAD. ) ;
#79 = EDGE_CURVE ( 'NONE', #169, #144, #24, .T. ) ;
#80 = AXIS2_PLACEMENT_3D ( 'NONE', #127, #257, #287 ) ;
#81 = LOCAL_TIME ( 17, 16, 2.000000000000000000, #78 ) ;
#82 = DIRECTION ( 'NONE',  ( -1.000000000000000000, -0.000000000000000000, -0.000000000000000000 ) ) ;
#83 = FACE_OUTER_BOUND ( 'NONE', #50, .T. ) ;
#84 = CC_DESIGN_APPROVAL ( #167, ( #44 ) ) ;
#85 = CARTESIAN_POINT ( 'NONE',  ( -1.614212418857619014, 0.000000000000000000, 0.000000000000000000 ) ) ;
#86 = DIRECTION ( 'NONE',  ( 0.000000000000000000, 0.000000000000000000, 1.000000000000000000 ) ) ;
#87 = EDGE_CURVE ( 'NONE', #278, #151, #262, .T. ) ;
#88 = DIRECTION ( 'NONE',  ( -1.000000000000000000, -0.000000000000000000, -0.000000000000000000 ) ) ;
#89 = ORIENTED_EDGE ( 'NONE', *, *, #229, .F. ) ;
#90 = APPROVAL_PERSON_ORGANIZATION ( #228, #159, #235 ) ;
#91 = DIRECTION ( 'NONE',  ( -1.000000000000000000, -0.000000000000000000, -0.000000000000000000 ) ) ;
#92 = DIRECTION ( 'NONE',  ( -1.000000000000000000, -0.000000000000000000, -0.000000000000000000 ) ) ;
#93 = CARTESIAN_POINT ( 'NONE',  ( 2.500000000000000888, 1.224646799147353256E-15, -10.00000000000000000 ) ) ;
#94 = ADVANCED_FACE ( 'NONE', ( #54 ), #130, .F. ) ;
#95 = PERSON_AND_ORGANIZATION ( #173, #263 ) ;
#96 = DIRECTION ( 'NONE',  ( -1.000000000000000000, -0.000000000000000000, -0.000000000000000000 ) ) ;
#97 = ORIENTED_EDGE ( 'NONE', *, *, #7, .F. ) ;
#98 = PERSON_AND_ORGANIZATION ( #173, #263 ) ;
#99 = APPROVAL_PERSON_ORGANIZATION ( #142, #330, #328 ) ;
#100 = DIRECTION ( 'NONE',  ( -0.000000000000000000, 0.000000000000000000, 1.000000000000000000 ) ) ;
#101 = EDGE_LOOP ( 'NONE', ( #195, #200, #16, #73 ) ) ;
#102 = PERSON_AND_ORGANIZATION_ROLE ( 'classification_officer' ) ;
#103 = CARTESIAN_POINT ( 'NONE',  ( -3.000000000000000000, 10.00000000000000000, 0.000000000000000000 ) ) ;
#104 = APPROVAL_DATE_TIME ( #312, #159 ) ;
#105 = CARTESIAN_POINT ( 'NONE',  ( -1.614212418857619014, 0.000000000000000000, 12.69999999999999929 ) ) ;
#106 = AXIS2_PLACEMENT_3D ( 'NONE', #109, #32, #160 ) ;
#107 = LOCAL_TIME ( 17, 16, 2.000000000000000000, #290 ) ;
#108 = EDGE_CURVE ( 'NONE', #39, #250, #227, .T. ) ;
#109 = CARTESIAN_POINT ( 'NONE',  ( -3.000000000000000000, 0.000000000000000000, 0.000000000000000000 ) ) ;
#110 = CARTESIAN_POINT ( 'NONE',  ( 2.500000000000000888, 0.000000000000000000, 10.00000000000000000 ) ) ;
#111 = DIRECTION ( 'NONE',  ( -1.000000000000000000, -0.000000000000000000, -0.000000000000000000 ) ) ;
#112 = EDGE_CURVE ( 'NONE', #220, #246, #12, .T. ) ;
#113 = AXIS2_PLACEMENT_3D ( 'NONE', #243, #46, #69 ) ;
#114 = DIRECTION ( 'NONE',  ( 0.000000000000000000, 0.000000000000000000, 1.000000000000000000 ) ) ;
#115 = FACE_OUTER_BOUND ( 'NONE', #101, .T. ) ;
#116 = ORIENTED_EDGE ( 'NONE', *, *, #323, .T. ) ;
#117 = CIRCLE ( 'NONE', #313, 10.00000000000000000 ) ;
#118 = AXIS2_PLACEMENT_3D ( 'NONE', #9, #196, #304 ) ;
#119 = EDGE_LOOP ( 'NONE', ( #223, #187 ) ) ;
#120 = EDGE_CURVE ( 'NONE', #246, #220, #188, .T. ) ;
#121 = PERSON_AND_ORGANIZATION ( #173, #263 ) ;
#122 = CARTESIAN_POINT ( 'NONE',  ( -1.614212418857619014, 0.000000000000000000, 10.00000000000000000 ) ) ;
#123 = EDGE_LOOP ( 'NONE', ( #97, #242, #116, #302 ) ) ;
#124 = APPLICATION_CONTEXT ( 'configuration controlled 3d designs of mechanical parts and assemblies' ) ;
#125 = APPROVAL_DATE_TIME ( #252, #330 ) ;
#126 = CALENDAR_DATE ( 2020, 22, 12 ) ;
#127 = CARTESIAN_POINT ( 'NONE',  ( -2.500000000000000444, 10.00000000000000000, 0.000000000000000000 ) ) ;
#128 = DIRECTION ( 'NONE',  ( -0.000000000000000000, 0.000000000000000000, 1.000000000000000000 ) ) ;
#129 = PLANE ( 'NONE',  #80 ) ;
#130 = CYLINDRICAL_SURFACE ( 'NONE', #267, 10.00000000000000000 ) ;
#131 = CYLINDRICAL_SURFACE ( 'NONE', #258, 10.00000000000000000 ) ;
#132 = DIRECTION ( 'NONE',  ( 1.000000000000000000, 0.000000000000000000, 0.000000000000000000 ) ) ;
#133 = AXIS2_PLACEMENT_3D ( 'NONE', #210, #88, #6 ) ;
#134 = ORIENTED_EDGE ( 'NONE', *, *, #316, .T. ) ;
#135 = APPROVAL_PERSON_ORGANIZATION ( #11, #167, #277 ) ;
#136 = DIRECTION ( 'NONE',  ( 0.000000000000000000, 0.000000000000000000, 1.000000000000000000 ) ) ;
#137 = CARTESIAN_POINT ( 'NONE',  ( -3.000000000000000444, 0.000000000000000000, 0.000000000000000000 ) ) ;
#138 = PRODUCT ( 'Q-OZHWP-R2-20-248-M', 'Q-OZHWP-R2-20-248-M', '', ( #13 ) ) ;
#139 = LOCAL_TIME ( 17, 16, 2.000000000000000000, #305 ) ;
#140 =( LENGTH_UNIT ( ) NAMED_UNIT ( * ) SI_UNIT ( .MILLI., .METRE. ) );
#141 = ORIENTED_EDGE ( 'NONE', *, *, #229, .T. ) ;
#142 = PERSON_AND_ORGANIZATION ( #173, #263 ) ;
#143 = FACE_OUTER_BOUND ( 'NONE', #272, .T. ) ;
#144 = VERTEX_POINT ( 'NONE', #239 ) ;
#145 = CIRCLE ( 'NONE', #25, 12.69999999999999929 ) ;
#146 = LOCAL_TIME ( 17, 16, 2.000000000000000000, #224 ) ;
#147 = CIRCLE ( 'NONE', #276, 12.69999999999999929 ) ;
#148 =( NAMED_UNIT ( * ) PLANE_ANGLE_UNIT ( ) SI_UNIT ( $, .RADIAN. ) );
#149 = ORIENTED_EDGE ( 'NONE', *, *, #87, .T. ) ;
#150 = DIRECTION ( 'NONE',  ( 1.000000000000000000, 0.000000000000000000, 0.000000000000000000 ) ) ;
#151 = VERTEX_POINT ( 'NONE', #110 ) ;
#152 = APPLICATION_PROTOCOL_DEFINITION ( 'international standard', 'config_control_design', 1994, #124 ) ;
#153 = AXIS2_PLACEMENT_3D ( 'NONE', #63, #216, #86 ) ;
#154 = CARTESIAN_POINT ( 'NONE',  ( 2.999999999999999112, 0.000000000000000000, 10.00000000000000000 ) ) ;
#155 = CARTESIAN_POINT ( 'NONE',  ( 3.000000000000000000, 1.555301434917138433E-15, -12.69999999999999929 ) ) ;
#156 = EDGE_CURVE ( 'NONE', #151, #278, #194, .T. ) ;
#157 = CIRCLE ( 'NONE', #308, 10.00000000000000000 ) ;
#158 = UNCERTAINTY_MEASURE_WITH_UNIT (LENGTH_MEASURE( 1.000000000000000082E-05 ), #140, 'distance_accuracy_value', 'NONE');
#159 = APPROVAL ( #20, 'UNSPECIFIED' ) ;
#160 = DIRECTION ( 'NONE',  ( 0.000000000000000000, 0.000000000000000000, 1.000000000000000000 ) ) ;
#161 = CIRCLE ( 'NONE', #60, 10.00000000000000000 ) ;
#162 = EDGE_CURVE ( 'NONE', #270, #144, #52, .T. ) ;
#163 = DIRECTION ( 'NONE',  ( 0.000000000000000000, 0.000000000000000000, -1.000000000000000000 ) ) ;
#164 = ORIENTED_EDGE ( 'NONE', *, *, #112, .T. ) ;
#165 = CARTESIAN_POINT ( 'NONE',  ( -1.614212418857619014, 0.000000000000000000, 0.000000000000000000 ) ) ;
#166 = EDGE_CURVE ( 'NONE', #65, #169, #283, .T. ) ;
#167 = APPROVAL ( #51, 'UNSPECIFIED' ) ;
#168 = CALENDAR_DATE ( 2020, 22, 12 ) ;
#169 = VERTEX_POINT ( 'NONE', #214 ) ;
#170 = SECURITY_CLASSIFICATION_LEVEL ( 'unclassified' ) ;
#171 = DIRECTION ( 'NONE',  ( 0.000000000000000000, 0.000000000000000000, 1.000000000000000000 ) ) ;
#172 = EDGE_LOOP ( 'NONE', ( #332, #294 ) ) ;
#173 = PERSON ( 'UNSPECIFIED', 'UNSPECIFIED', 'UNSPECIFIED', ('UNSPECIFIED'), ('UNSPECIFIED'), ('UNSPECIFIED') ) ;
#174 = EDGE_CURVE ( 'NONE', #250, #39, #117, .T. ) ;
#175 = ORIENTED_EDGE ( 'NONE', *, *, #204, .F. ) ;
#176 = ORIENTED_EDGE ( 'NONE', *, *, #327, .F. ) ;
#177 = FACE_BOUND ( 'NONE', #70, .T. ) ;
#178 = DIRECTION ( 'NONE',  ( -1.000000000000000000, 0.000000000000000000, -0.000000000000000000 ) ) ;
#179 = EDGE_CURVE ( 'NONE', #329, #238, #161, .T. ) ;
#180 = ORIENTED_EDGE ( 'NONE', *, *, #56, .T. ) ;
#181 = PLANE ( 'NONE',  #182 ) ;
#182 = AXIS2_PLACEMENT_3D ( 'NONE', #103, #53, #233 ) ;
#183 = CC_DESIGN_PERSON_AND_ORGANIZATION_ASSIGNMENT ( #71, #334, ( #75 ) ) ;
#184 = DIRECTION ( 'NONE',  ( 0.000000000000000000, 0.000000000000000000, 1.000000000000000000 ) ) ;
#185 = CARTESIAN_POINT ( 'NONE',  ( -2.500000000000000444, 1.224646799147353256E-15, -10.00000000000000000 ) ) ;
#186 = FACE_OUTER_BOUND ( 'NONE', #123, .T. ) ;
#187 = ORIENTED_EDGE ( 'NONE', *, *, #174, .T. ) ;
#188 = CIRCLE ( 'NONE', #19, 10.00000000000000000 ) ;
#189 = DIRECTION ( 'NONE',  ( -1.000000000000000000, -0.000000000000000000, -0.000000000000000000 ) ) ;
#190 = ADVANCED_FACE ( 'NONE', ( #186 ), #296, .F. ) ;
#191 = DIRECTION ( 'NONE',  ( -1.000000000000000000, -0.000000000000000000, -0.000000000000000000 ) ) ;
#192 = EDGE_LOOP ( 'NONE', ( #175, #320 ) ) ;
#193 = ORIENTED_EDGE ( 'NONE', *, *, #87, .F. ) ;
#194 = CIRCLE ( 'NONE', #153, 10.00000000000000000 ) ;
#195 = ORIENTED_EDGE ( 'NONE', *, *, #56, .F. ) ;
#196 = DIRECTION ( 'NONE',  ( -1.000000000000000000, -0.000000000000000000, -0.000000000000000000 ) ) ;
#197 = ORIENTED_EDGE ( 'NONE', *, *, #204, .T. ) ;
#198 = PERSON_AND_ORGANIZATION ( #173, #263 ) ;
#199 = PLANE ( 'NONE',  #45 ) ;
#200 = ORIENTED_EDGE ( 'NONE', *, *, #166, .T. ) ;
#201 = CARTESIAN_POINT ( 'NONE',  ( 0.000000000000000000, 0.000000000000000000, 0.000000000000000000 ) ) ;
#202 = CARTESIAN_POINT ( 'NONE',  ( 2.999999999999999112, 1.224646799147353256E-15, -10.00000000000000000 ) ) ;
#203 = DATE_TIME_ROLE ( 'classification_date' ) ;
#204 = EDGE_CURVE ( 'NONE', #169, #65, #145, .T. ) ;
#205 = VECTOR ( 'NONE', #92, 1000.000000000000000 ) ;
#206 = DIRECTION ( 'NONE',  ( -1.000000000000000000, -0.000000000000000000, -0.000000000000000000 ) ) ;
#207 = DIRECTION ( 'NONE',  ( -1.000000000000000000, -0.000000000000000000, -0.000000000000000000 ) ) ;
#208 = AXIS2_PLACEMENT_3D ( 'NONE', #285, #206, #26 ) ;
#209 = DIRECTION ( 'NONE',  ( 0.000000000000000000, 0.000000000000000000, 1.000000000000000000 ) ) ;
#210 = CARTESIAN_POINT ( 'NONE',  ( 3.000000000000000000, 0.000000000000000000, 0.000000000000000000 ) ) ;
#211 = CARTESIAN_POINT ( 'NONE',  ( -3.000000000000000444, 0.000000000000000000, 0.000000000000000000 ) ) ;
#212 = EDGE_LOOP ( 'NONE', ( #309, #275, #164, #47 ) ) ;
#213 = ADVANCED_FACE ( 'NONE', ( #261 ), #131, .F. ) ;
#214 = CARTESIAN_POINT ( 'NONE',  ( 3.000000000000000000, 0.000000000000000000, 12.69999999999999929 ) ) ;
#215 = SECURITY_CLASSIFICATION ( '', '', #170 ) ;
#216 = DIRECTION ( 'NONE',  ( -1.000000000000000000, -0.000000000000000000, -0.000000000000000000 ) ) ;
#217 = EDGE_CURVE ( 'NONE', #238, #329, #157, .T. ) ;
#218 = LINE ( 'NONE', #245, #314 ) ;
#219 = ORIENTED_EDGE ( 'NONE', *, *, #156, .F. ) ;
#220 = VERTEX_POINT ( 'NONE', #260 ) ;
#221 = PERSON_AND_ORGANIZATION_ROLE ( 'creator' ) ;
#222 = LINE ( 'NONE', #122, #205 ) ;
#223 = ORIENTED_EDGE ( 'NONE', *, *, #108, .T. ) ;
#224 = COORDINATED_UNIVERSAL_TIME_OFFSET ( 8, 0, .AHEAD. ) ;
#225 = CARTESIAN_POINT ( 'NONE',  ( -3.000000000000000000, 0.000000000000000000, 0.000000000000000000 ) ) ;
#226 = PERSON_AND_ORGANIZATION_ROLE ( 'creator' ) ;
#227 = CIRCLE ( 'NONE', #254, 10.00000000000000000 ) ;
#228 = PERSON_AND_ORGANIZATION ( #173, #263 ) ;
#229 = EDGE_CURVE ( 'NONE', #39, #151, #27, .T. ) ;
#230 = LINE ( 'NONE', #311, #247 ) ;
#231 = PRODUCT_DEFINITION_SHAPE ( 'NONE', 'NONE',  #44 ) ;
#232 = AXIS2_PLACEMENT_3D ( 'NONE', #201, #42, #150 ) ;
#233 = DIRECTION ( 'NONE',  ( 0.000000000000000000, 0.000000000000000000, -1.000000000000000000 ) ) ;
#234 = CARTESIAN_POINT ( 'NONE',  ( -1.614212418857619014, 0.000000000000000000, 10.00000000000000000 ) ) ;
#235 = APPROVAL_ROLE ( '' ) ;
#236 = AXIS2_PLACEMENT_3D ( 'NONE', #286, #178, #128 ) ;
#237 = CC_DESIGN_DATE_AND_TIME_ASSIGNMENT ( #15, #248, ( #44 ) ) ;
#238 = VERTEX_POINT ( 'NONE', #185 ) ;
#239 = CARTESIAN_POINT ( 'NONE',  ( -3.000000000000000000, 0.000000000000000000, 12.69999999999999929 ) ) ;
#240 = LOCAL_TIME ( 17, 16, 2.000000000000000000, #279 ) ;
#241 = FACE_OUTER_BOUND ( 'NONE', #212, .T. ) ;
#242 = ORIENTED_EDGE ( 'NONE', *, *, #217, .T. ) ;
#243 = CARTESIAN_POINT ( 'NONE',  ( -1.614212418857619014, 0.000000000000000000, 0.000000000000000000 ) ) ;
#244 = ORIENTED_EDGE ( 'NONE', *, *, #174, .F. ) ;
#245 = CARTESIAN_POINT ( 'NONE',  ( -1.614212418857619014, 1.224646799147353256E-15, -10.00000000000000000 ) ) ;
#246 = VERTEX_POINT ( 'NONE', #291 ) ;
#247 = VECTOR ( 'NONE', #82, 1000.000000000000000 ) ;
#248 = DATE_TIME_ROLE ( 'creation_date' ) ;
#249 = ADVANCED_BREP_SHAPE_REPRESENTATION ( 'Q-OZHWP-R2-20-248-M', ( #43, #232 ), #2 ) ;
#250 = VERTEX_POINT ( 'NONE', #202 ) ;
#251 = PERSON_AND_ORGANIZATION_ROLE ( 'design_owner' ) ;
#252 = DATE_AND_TIME ( #49, #146 ) ;
#253 = ORIENTED_EDGE ( 'NONE', *, *, #217, .F. ) ;
#254 = AXIS2_PLACEMENT_3D ( 'NONE', #289, #189, #319 ) ;
#255 = FACE_BOUND ( 'NONE', #119, .T. ) ;
#256 = APPLICATION_CONTEXT ( 'configuration controlled 3d designs of mechanical parts and assemblies' ) ;
#257 = DIRECTION ( 'NONE',  ( 1.000000000000000000, 0.000000000000000000, 0.000000000000000000 ) ) ;
#258 = AXIS2_PLACEMENT_3D ( 'NONE', #85, #59, #64 ) ;
#259 = PLANE ( 'NONE',  #236 ) ;
#260 = CARTESIAN_POINT ( 'NONE',  ( -3.000000000000000444, 1.224646799147353256E-15, -10.00000000000000000 ) ) ;
#261 = FACE_OUTER_BOUND ( 'NONE', #34, .T. ) ;
#262 = CIRCLE ( 'NONE', #208, 10.00000000000000000 ) ;
#263 = ORGANIZATION ( 'UNSPECIFIED', 'UNSPECIFIED', '' ) ;
#264 = CARTESIAN_POINT ( 'NONE',  ( 2.999999999999999112, 0.000000000000000000, 0.000000000000000000 ) ) ;
#265 = CARTESIAN_POINT ( 'NONE',  ( -2.500000000000000444, 0.000000000000000000, 0.000000000000000000 ) ) ;
#266 = DIRECTION ( 'NONE',  ( 0.000000000000000000, 0.000000000000000000, 1.000000000000000000 ) ) ;
#267 = AXIS2_PLACEMENT_3D ( 'NONE', #3, #207, #184 ) ;
#268 = DIRECTION ( 'NONE',  ( -1.000000000000000000, 0.000000000000000000, -0.000000000000000000 ) ) ;
#269 = CARTESIAN_POINT ( 'NONE',  ( -2.500000000000000444, 0.000000000000000000, 10.00000000000000000 ) ) ;
#270 = VERTEX_POINT ( 'NONE', #8 ) ;
#271 = DATE_AND_TIME ( #168, #81 ) ;
#272 = EDGE_LOOP ( 'NONE', ( #219, #193 ) ) ;
#273 = DATE_AND_TIME ( #74, #139 ) ;
#274 = AXIS2_PLACEMENT_3D ( 'NONE', #211, #191, #209 ) ;
#275 = ORIENTED_EDGE ( 'NONE', *, *, #7, .T. ) ;
#276 = AXIS2_PLACEMENT_3D ( 'NONE', #225, #40, #171 ) ;
#277 = APPROVAL_ROLE ( '' ) ;
#278 = VERTEX_POINT ( 'NONE', #93 ) ;
#279 = COORDINATED_UNIVERSAL_TIME_OFFSET ( 8, 0, .AHEAD. ) ;
#280 = EDGE_LOOP ( 'NONE', ( #244, #134, #149, #89 ) ) ;
#281 = FACE_OUTER_BOUND ( 'NONE', #172, .T. ) ;
#282 = PRODUCT_RELATED_PRODUCT_CATEGORY ( 'detail', '', ( #138 ) ) ;
#283 = CIRCLE ( 'NONE', #133, 12.69999999999999929 ) ;
#284 = ADVANCED_FACE ( 'NONE', ( #143 ), #199, .F. ) ;
#285 = CARTESIAN_POINT ( 'NONE',  ( 2.500000000000000888, 0.000000000000000000, 0.000000000000000000 ) ) ;
#286 = CARTESIAN_POINT ( 'NONE',  ( 2.999999999999999112, 12.69999999999999929, 0.000000000000000000 ) ) ;
#287 = DIRECTION ( 'NONE',  ( 0.000000000000000000, 0.000000000000000000, -1.000000000000000000 ) ) ;
#288 = CC_DESIGN_APPROVAL ( #330, ( #75 ) ) ;
#289 = CARTESIAN_POINT ( 'NONE',  ( 2.999999999999999112, 0.000000000000000000, 0.000000000000000000 ) ) ;
#290 = COORDINATED_UNIVERSAL_TIME_OFFSET ( 8, 0, .AHEAD. ) ;
#291 = CARTESIAN_POINT ( 'NONE',  ( -3.000000000000000444, 0.000000000000000000, 10.00000000000000000 ) ) ;
#292 = ADVANCED_FACE ( 'NONE', ( #115 ), #299, .T. ) ;
#293 = DIRECTION ( 'NONE',  ( -1.000000000000000000, -0.000000000000000000, -0.000000000000000000 ) ) ;
#294 = ORIENTED_EDGE ( 'NONE', *, *, #162, .T. ) ;
#295 = VECTOR ( 'NONE', #4, 1000.000000000000000 ) ;
#296 = CYLINDRICAL_SURFACE ( 'NONE', #1, 10.00000000000000000 ) ;
#297 = DIRECTION ( 'NONE',  ( 1.000000000000000000, 0.000000000000000000, 0.000000000000000000 ) ) ;
#298 = ADVANCED_FACE ( 'NONE', ( #36 ), #66, .T. ) ;
#299 = CYLINDRICAL_SURFACE ( 'NONE', #113, 12.69999999999999929 ) ;
#300 = CC_DESIGN_SECURITY_CLASSIFICATION ( #215, ( #75 ) ) ;
#301 = ORIENTED_EDGE ( 'NONE', *, *, #79, .F. ) ;
#302 = ORIENTED_EDGE ( 'NONE', *, *, #120, .T. ) ;
#303 = APPROVAL_STATUS ( 'not_yet_approved' ) ;
#304 = DIRECTION ( 'NONE',  ( 0.000000000000000000, 0.000000000000000000, 1.000000000000000000 ) ) ;
#305 = COORDINATED_UNIVERSAL_TIME_OFFSET ( 8, 0, .AHEAD. ) ;
#306 = DIRECTION ( 'NONE',  ( 0.000000000000000000, 0.000000000000000000, 1.000000000000000000 ) ) ;
#307 = CLOSED_SHELL ( 'NONE', ( #298, #322, #94, #284, #213, #190, #29, #292, #18, #31 ) ) ;
#308 = AXIS2_PLACEMENT_3D ( 'NONE', #265, #132, #324 ) ;
#309 = ORIENTED_EDGE ( 'NONE', *, *, #179, .T. ) ;
#310 = CARTESIAN_POINT ( 'NONE',  ( -1.614212418857619014, 1.224646799147353256E-15, -10.00000000000000000 ) ) ;
#311 = CARTESIAN_POINT ( 'NONE',  ( -1.614212418857619014, 1.555301434917138433E-15, -12.69999999999999929 ) ) ;
#312 = DATE_AND_TIME ( #317, #107 ) ;
#313 = AXIS2_PLACEMENT_3D ( 'NONE', #264, #30, #136 ) ;
#314 = VECTOR ( 'NONE', #96, 1000.000000000000000 ) ;
#315 = DIRECTION ( 'NONE',  ( -1.000000000000000000, -0.000000000000000000, -0.000000000000000000 ) ) ;
#316 = EDGE_CURVE ( 'NONE', #250, #278, #218, .T. ) ;
#317 = CALENDAR_DATE ( 2020, 22, 12 ) ;
#318 = CARTESIAN_POINT ( 'NONE',  ( 3.000000000000000000, 0.000000000000000000, 0.000000000000000000 ) ) ;
#319 = DIRECTION ( 'NONE',  ( 0.000000000000000000, 0.000000000000000000, 1.000000000000000000 ) ) ;
#320 = ORIENTED_EDGE ( 'NONE', *, *, #166, .F. ) ;
#321 = EDGE_LOOP ( 'NONE', ( #197, #180, #176, #301 ) ) ;
#322 = ADVANCED_FACE ( 'NONE', ( #241 ), #325, .F. ) ;
#323 = EDGE_CURVE ( 'NONE', #329, #246, #222, .T. ) ;
#324 = DIRECTION ( 'NONE',  ( 0.000000000000000000, 0.000000000000000000, -1.000000000000000000 ) ) ;
#325 = CYLINDRICAL_SURFACE ( 'NONE', #58, 10.00000000000000000 ) ;
#326 = CARTESIAN_POINT ( 'NONE',  ( 2.500000000000000444, 10.00000000000000000, 0.000000000000000000 ) ) ;
#327 = EDGE_CURVE ( 'NONE', #144, #270, #147, .T. ) ;
#328 = APPROVAL_ROLE ( '' ) ;
#329 = VERTEX_POINT ( 'NONE', #269 ) ;
#330 = APPROVAL ( #303, 'UNSPECIFIED' ) ;
#331 = VECTOR ( 'NONE', #335, 1000.000000000000000 ) ;
#332 = ORIENTED_EDGE ( 'NONE', *, *, #327, .T. ) ;
#333 = CC_DESIGN_APPROVAL ( #159, ( #215 ) ) ;
#334 = PERSON_AND_ORGANIZATION_ROLE ( 'design_supplier' ) ;
#335 = DIRECTION ( 'NONE',  ( -1.000000000000000000, -0.000000000000000000, -0.000000000000000000 ) ) ;
ENDSEC;
END-ISO-10303-21;
